Texas Flood Lick lesson
(/) Slide Up  (\) Slide Down  (h) Hammer On  (p) Pull Off  (b) Bend (r) Release (v) Vibrato
00:47

E|-----3------3----------3------5--3h4p3-----------------------------------------------
B|-------3-6b---6-3----3----6-3-----------6--3-----------------------------------------
G|--5b---------------5b--------------------------5--3----------------------------------
D|----------------------------------------------------5--3-----------------------3--5--
A|----------------------------------------------------------5--4--3h4p3----------------
E|-------------------------------------------------------------------------6--3--------

E|--------3--------------3------3------3h5--3h5--3h5--3h5-4-3h4p3------------------3---
B|------3---6-3-6b-6b-6b---3-6b---3-6b----------------------------6-3------------------
G|--3-4----------------------------------------------------------------5b5-3-3-5b----3-
D|-----------------------------------------------------------------------5-------------
A|-------------------------------------------------------------------------------------
E|-------------------------------------------------------------------------------------

E|----15---15-------15--18b-18b-18-15--3---------3------------------------3-3----3---
B|-/15---15---15-18b---------------------6-3---3---6-3--------------3-----3----------
G|-------------------------------------------5b--------5-3v---------3-----3---5b--5b-
D|----------------------------------------------------------5-3----------------------
A|--------------------------------------------------------------5--------------------
E|----------------------------------------------------------------3----3-------------

E|--------------3--3--------------
B|--------------3--3--------------
G|--5--3--------3--3----------5---
D|---------5------------------4---
A|-------------------3--4--5--5---
E|-----------3--------------------
Become a Patron (tier $3 and above) to download playable Guitar Pro tabs!

Leave a Reply

Your email address will not be published. Required fields are marked *