So Excited full song
(/) Slide Up  (\) Slide Down  (h) Hammer On  (p) Pull Off  (b) Bend (r) Release (v) Vibrato

E|--5--------------------------5--------------------------
B|--5--------------------------5--------------------------
G|--5--------------------------5--------------------------
D|-----------7--7--5--7--5--------------7--7--5--7--5----- 2x
A|--------------------------7--------------------------7--
E|-----5--5-----------------------5--5--------------------

E|--5--------------------------5--------------------------
B|-----------7--7--5—7b--5-----5--------7--7--5—7b--5-----
G|-----------7--7--5—7b--5-----5--------7--7--5—7b--5-----
D|--------------------------7--------------------------7--
A|-----5--5-----------------------5--5--------------------
E|--------------------------------------------------------

E|--5--------------------------5--------------------------
B|--5--------------------------5--------------------------
G|--5--------------------------5--------------------------
D|-----------7--7--5--7--5--------------7--7--5--7--5-----
A|--------------------------7--------------------------7--
E|-----5--5-----------------------5--5--------------------

E|--------------------------------------------------------5--
B|-----------9--9--7--9--7--------------7--7--5—7b--5--------
G|-----------9--9--7--9--7--------------7--7--5—7b--5--------
D|--------------------------9--9-----------------------------
A|--5--7--7-----------------------5--5-----------------7-----
E|-----------------------------------------------------------

E|--5--------------------------5--------------------------
B|--5--------------------------5--------------------------
G|--5--------------------------5--------------------------
D|-----------7--7--5--7--5--------------7--7--5-----------
A|--------------------------7-----------------------------
E|-----5--5-----------------------5--5--------------------

E|-5-----5--------------5-----5--------------------------------------
B|-5---5---8b-8b-8b-8b--5--5----8br-5------------------12\-----------
G|---7b------------------7b-----------7----------------12\----------- x2
D|----------------------------------------7-7-5-7-5----12\----7-7-5--
A|-------------------------------------------------7-----------------
E|--------------------------------------5-------------------5--------

E|-5-----5----5-7-5h7p5------5---5-5-8b-5-5---5-5---------5-----5----------------
B|-5---5---8b-----------8-5--5---5-5----5-5---5-5---------5---5---8--------------
G|---7b------------------------7b-----------7b-----7b-7-5---7b------7b-7-5-5b----
D|------------------------------------------------------------------------7--7---
A|----------------------------------------------------------------------------7\-
E|-------------------------------------------------------------------------------

E|----5------------------------5------------------------5-----5----------------
B|---5-8b-8br-8brb-8brb-8br-8b-5------5b----------------5---5---8--------------
G|-7b---------------------------7b-7br---7-5-7-7-5--------7b-----7br-5--5b-----
D|------------------------------------------------7-5-7---------------7---7----
A|--------------------------------------------------------------------------7\-
E|-----------------------------------------------------------------------------

E|-5---5----------5----5----7-5h6p5-----5-----8-5--8-5-8-5-8-5-8-5-8-5-8-5-8-5-8-5--
B|----5--8-5------5---5--8-5--------8-5-5--------5----5---5---5---5---5---5---5---5-
G|--7b------7b-7-5--7b-------------------7br-5--------------------------------------
D|----------------------------------------------------------------------------------
A|----------------------------------------------------------------------------------
E|----------------------------------------------------------------------------------

E|-8b-8-5-----------------12-12\---8b-8-5------------------12-14-14-12h14p12----12\-
B|--------8-5-------------12-12\----------8-5--------------12-12-12----------12-----
G|------------7br-5---5/--12-12\--------------7br-5---5/----------------------------
D|------------------7-------------------------------7-------------------------------
A|----------------------------------------------------------------------------------
E|----------------------------------------------------------------------------------

E|-------10-------12-10h12p10--10------------12-11p10------------------5------------
B|----10----13p10------------13---13p10-13-10--------13-10\------------5------------
G|---------------------------------------------------------7-5-7-7b-7b--7b-7b-7p5-5-
D|-/12---------------------------------------------------------------------------7--
A|----------------------------------------------------------------------------------
E|----------------------------------------------------------------------------------

E|---5-5-----7-6p5---------------------------------------------
B|---5-5-8-5-------8-5-------7/8-8-8-7/8-8-8-7/8-8-8-7/8-8-8-8-
G|-7b------------------7br-5-8/9-9-9-8/9-9-9-8/9-9-9-8/9-9-9-9-
D|-------------------------------------------------------------
A|-------------------------------------------------------------
E|-------------------------------------------------------------

-10-10-10-10-10-10-10-11-11-11-12-12-12-12-12-12-12-
-10-10-10-10-10-10-10-11-11-11-12-12-12-12-12-12-12-
-11-11-11-11-11-11-11-12-12-12-13-13-13-13-13-13-13-
----------------------------------------------------
----------------------------------------------------
----------------------------------------------------


E|-17-17-17--------------------------0-0----------------------17-
B|----------17-20b-20b--20b-20b-17\--0-0---17-17-20b-20b----17---
G|---------------------------------------19b------------19b------
D|---------------------------------------------------------------
A|---------------------------------------------------------------
E|---------------------------------------------------------------

--------------------------------------------------
-20b-20br-20br-20br-20-20b-20-20b-20b-20-17-------
-------------------------------------------19-17\-
--------------------------------------------------
--------------------------------------------------
--------------------------------------------------

E|---------------5-----------------5-----7-6p5-----------
B|-------------5---8-5------------5--8-5-------8-5-------
G|-7-7-5b----7b--------7b-7-5-5-7b------------------7br-5
D|-------7-----------------------------------------------
A|---------7\--------------------------------------------
E|-------------------------------------------------------

--------------------------------5-----5------------------
-7/8-8-8-7/8-8-8-7/8-8-8--------5---5--8p5---------------
-8/9-9-9-8/9-9-9-8/9-9-9-7-5--5---7b-------7-5-7-7-5b----
----------------------------7------------------------7---
------------------------------------------------------7\-
---------------------------------------------------------

E|-12-12-12\--12-12-12\--12-12-12\--12-12-12\--15-16-17-17\-
B|-12-12-12\--12-12-12\--12-12-12\--12-12-12\--15-16-17-17\-
G|-12-12-12\--12-12-12\--12-12-12\--12-12-12\--15-16-17-17\-
D|-11-11-11\--11-11-11\--11-11-11\--11-11-11\--14-15-16-16\-
A|----------------------------------------------------------
E|----------------------------------------------------------

--17-17-17\--10-11-12-12\--12-12-12\-
--17-17-17\--10-11-12-12\--12-12-12\-
--17-17-17\--10-11-12-12\--12-12-12\-
--16-16-16\---9-10-11-11\--11-11-11\-
-------------------------------------
-------------------------------------

E|-10-11-12-12---8-9-10-10---10-11-12-12---12-12------------
B|-10-11-12-12---8-9-10-10---10-11-12-12---12-12------------
G|--7--8--9--9---5-6--7--7---10-11-12-12---12-12----0h2-0h2-
D|--7--8--9--9---5-6--7--7----9-10-11-11---11-11------------
A|----------------------------------------------------------
E|----------------------------------------------------------

E|-----------------------------5-------------------------------------10--
B|------------------------------5------------------------------------10--
G|-7b-7-5-7-5---------------5----5---7b-7-5-7-5---------5h7-5--------10--
D|------------7-5-7-5-7-5-7-------7------------7-5-7-7-------7p5---------
A|--------------------------------------------------------------7p5------
E|-----------------------------------------------------------------5-----

E|-------------------------10----------------------------17--
B|----------10-------------10-------------10-------------17--
G|----10-12----10----------10-------10-12----10----------17--
D|-12-----------12p10------------12-----------12p10-----------
A|------------------12p10-------------------------12p10-------
E|----------------------10----------------------------10------

E|------------------------------------------------19-17h18p17-----20-17-------------
B|----------------20----------------------17-20-17-----------20p17------20-17-------
G|----17-19b-19-17--19b-19-17--------17-19-----------------------------------19-19b-
D|-19------------------------19-19-19-----------------------------------------------
A|----------------------------------------------------------------------------------
E|----------------------------------------------------------------------------------

E|-5---5-------------------------------
B|---5---8-----------------------------
G|---------7b-7-7-5b-----5-------------
D|------------------7------7-5---------
A|-------------------7\-------7p5-7-7/-
E|-------------------------------------

E|-------------------------------------------------------------
B|-------------------------------------------------------------
G|----17-19----17-17h19-17h19-17h19----17-17h19-17h19-17h19-17-
D|-19-------19----------------------19-------------------------
A|-------------------------------------------------------------
E|-------------------------------------------------------------

---------------------------------------------------------------
----------------------------------17---------------------------
----17-19-17h19-17-17h19-17-17h19----17h19p17----17-19br-17----
-19-------------------------------------------19-----------19--
---------------------------------------------------------------
---------------------------------------------------------------

E|-------17--------------------------------------------------------------
B|----17----20-17--------------------------------------------------------
G|-19b-------------20-19-17----17----------------------------------------
D|-------------------------19----19-17----------------17-----------------
A|-------------------------------------19-18-17----------19-18-17-15b----
E|----------------------------------------------20-17----------------17\-

E|---------------------7-7-7-7-7-------5-----7-5h6p5-----8-5-5----5--------------
B|-7-7----------------------------5--5---8-5---------8-5-----5---5-8-------------
G|-7-5-----------------7-7-7-7-7---7b--------------------------7b---7b-7-5-5b----
D|-----7-5-------------6-6-6-6-6------------------------------------------7--7---
A|---------7-6-5-5-6-7-7-7-7-7-7----------------------------------------------7\-
E|--------------8----------------------------------------------------------------

E|-10b-10b-8-------8/--10br-10br-10brb-10brb-10br-10b-8-
B|-----------10-10--------------------------------------
G|------------------------------------------------------
D|------------------------------------------------------
A|------------------------------------------------------
E|------------------------------------------------------

------8\-10b-10-8-------------------5--------
-10-10-----------10-8\5----------------------
------------------------7-5-7b-7b~~~---7b~~~-
---------------------------------------------
---------------------------------------------
---------------------------------------------

E|-5------5-----5-----5-----5-------------------
B|----------8b~~--------8b~~--------------------
G|---7b~~---------7b~~--------7b~~r~~r~~r~~r~~-- (play with vibrato while 
D|---------------------------------------------- slowly releasing the string)
A|----------------------------------------------
E|----------------------------------------------

E|-5-----5--------------5-----5--------------------------------------
B|-5---5---8b-8b-8b-8b--5--5----8br-5------------------12\-----------
G|---7b------------------7b-----------7----------------12\----------- x2
D|----------------------------------------7-7-5-7-5----12\----7-7-5--
A|-------------------------------------------------7-----------------
E|--------------------------------------5-------------------5--------

E|----5---7-5h6p5----------10b-10-8--------10b-8-10p8------------11-12h14p12h14p12h14p12
B|--5--8-5-------8-5-5-------------10-10-8----------10-8\5-------11-12------------------
G|-7b-----------------7br-5-------------------------------7b-7-5-11-12------------------
D|---------------------------------------------------------------10-11------------------
A|--------------------------------------------------------------------------------------
E|--------------------------------------------------------------------------------------
Become a Patron (tier $3 and above) to download playable Guitar Pro tabs!

3 thoughts on “So Excited – Stevie Ray Vaughan

  1. hello, I stumbled on to your site its great…I will do what I can to support you guys. I was wondering if their was any way to download the backing track with the band/live version of SRV ” im so excited” . I really like it and would like to run through a small Pa and jam with it . like MP3 download or anything that would work. Please let me know ..thx Michael

  2. Hello

    World you be interested in putting this tab of so excited at mocambo in guitar pro format?
    I would of course pay for the work as I know how long it takes.

    Thanks

    Nick

Leave a Reply

Your email address will not be published. Required fields are marked *