SRV Scuttle Buttin' (slowed down)
(/) Slide Up  (\) Slide Down  (h) Hammer On  (p) Pull Off  (b) Bend (r) Release (v) Vibrato

E|-----------0-----------0--------------------------3--3--3--3--3--
B|--------0-----0—-3/5------3--0--------------------3--3--3--3--3--
G|--2/4 --------------------------3--2--0-----------1--1--1--1--1--   2x
D|-----------------------------------------2--------x--x--x--x--x--
A|--------------------------------------------------2--2--2--2--2--
E|--------------------------------------------0--0-----------------

E|-----------0-----------0--------------------------3--3--3--3--3--
B|--------0-----0—3/5-------3--0--------------------2--2--2--2--2--
G|--2/4---------------------------3--2--0-----------0--0--0--0--0--
D|-----------------------------------------2--------2--2--2--2--2--
A|--------------------------------------------0--0-----------------
E|-----------------------------------------------------------------

E|-----------0-----------0--------------------------3--3--3--3--3--
B|--------0-----0—3/5------3--0--------------------3--3--3--3--3--
G|--2/4---------------------------3--2--0-----------1--1--1--1--1--
D|-----------------------------------------2--------x--x--x--x--x--
A|--------------------------------------------------2--2--2--2--2--
E|--------------------------------------------0--0-----------------

E|-----------0-----------0-----------------------------------------
B|--------0-----0—3/5------3--0--------------------3--3--3--3--3--
G|--2/4---------------------------3--2--0-----------2--2--2--2--2--
D|-----------------------------------------2--------1--1--1--1--1--
A|--------------------------------------------2--2-----2--2--2--2--
E|-----------------------------------------------------------------

E|-----0-----0-----------0-----------------------------------------
B|--------0-----0—3/5------3--0--------------------3--3--3--3--3--
G|--------------------------------3--2--0-----------2--2--2--2--2--
D|-----------------------------------------2--------1--1--1--1--1--
A|--------------------------------------------2--2-----2--2--2--2--
E|-----------------------------------------------------------------

Become a Patron (tier $3 and above) to download playable Guitar Pro tabs!

Leave a Reply

Your email address will not be published. Required fields are marked *