Rock sounds 2 (Epi vs Gib)
(/) Slide Up  (\) Slide Down  (h) Hammer On  (p) Pull Off  (b) Bend (r) Release (v) Vibrato

Communication breakdown

E|--------------------------------------------------------------------
B|--------------------------------------------------------------------
G|--9-----------------------7-----7--9-----------------------7--6--7--
D|--9-----------------------7--7--7--9-----------------------7--7--7--
A|--7-----------------------5--7--5--7-----------------------5--0--5--
E|-----0--0--0--0--0--0--0-----5--------0--0--0--0--0--0--0-----------

Black Dog

E|-----------------------------------------------------------------------------
B|-----------------------------------------------------------------------------
G|-----------------------------------------------------------------------------
D|-----------------5b-------------------5b-------------------5b----------------
A|-----5--6--7--------7-----5--6--7--------7-----5--6--7--------7-----5--6--7--
E|--7-----------7--------7-----------7--------7-----------7--------7-----------

E|------------------------------------------------------------------------
B|------------------------------------------------------------------------
G|-----------------5b----7--9--5h7p5--------5b----------------------------
D|-----5--6--7--------7---------------7--7-----7--5--7--7-----------------
A|--7-----------7------------------------------------------5--7--3--5--0--
E|------------------------------------------------------------------------

E|------------------------------------------------------------------
B|-----------------2-------------------2-------------------2--5--2--
G|--4br4p2--4--2---2--4br4p2--4--2--0--2--4br4p2--4--2-----2--5--2--
D|-----------------2-------------------2----------------4--2--5--2--
A|-----------------0-------------------0-------------------0--3--0--
E|------------------------------------------------------------------

E|--------------------------------------------3--2--
B|--2--0--2--0----2--0--5--2----2--0--2--0----0--3--
G|--2--0--2--0----2--0--5--2----2--0--2--0----0--2--
D|--2--0--2--0----2--0--5--2----2--0--2--0----0--0--
A|----------------------3--0------------------2-----
E|--------------------------------------------3-----

Sweet Home Alabama

E|--------------------------------------3-----------------------
B|--------3--------------3--------------------------------------
G|-----------2--------------0------------------------------2p0--
D|--0--0--------0--------------2-------------------0h2p0--------
A|-----------------3--3----------------------0h2---------3------
E|--------------------------------3--3--------------------------

E|--------------------------------------3------------------------------
B|--------3--------------3---------------------------------------------
G|-----------2--------------0------------------0--2p0--0--4p0--0--5/7--
D|--0--0--------0--------------2---------------------------------------
A|-----------------3--3------------------------------------------------
E|--------------------------------3--3---------------------------------

E|-----------------------------------------------------3--
B|-----------------------------------------------------3--
G|-----------------------------------------------------0--
D|---------7--7--------------5--5-------------0--0-----0--
A|--7h8h9--------9\-----5h7--------7\--0h1h2-----------2--
E|--------------------------------------------------3--3--

Moby Dick (drop D tuning)

E|-----------------------------------
B|-----------------------------------
G|-----------------------------------
D|----------------------------------- 4x
A|-----5--5p3------------------------
E|--0-----------5--3~~p0--5--3--5~~--

E|-----------------------------------
B|-----------------------------------
G|----------------------------------- 2x
D|-----5--5p3------------------------
A|--------------5--1~~p0--3--1--3~~--
E|--5--------------------------------

E|-----------------------------------
B|-----------------------------------
G|-----------------------------------
D|----------------------------------- 4x
A|-----5--5p3------------------------
E|--0-----------5--3~~p0--5--3--5~~--

E|-----------------------------------------------------------------------------
B|-----------------------------------------------------------------------------
G|------------------------------------------------------5/7--7p5---------------
D|-----7--7p5-----7--7-----5--7----/5--5--5--5--5p3---------------7--5---------
A|-------------7--------7----------------------------5------------------8b-----
E|--7-----------------------------------------------------------------------0--

Immigrant song

E|----------------------------------------------------------------
B|----------------------------------------------------------------
G|----------------------------------------------------------------
D|-------------------4-----------------------------4--------------
A|----------------------------------------------------------------
E|----2----2----2---------2----0----2----2----2---------2----0----

E|---------0----0----------------------------------------------------------------
B|----2----0----0----2-----------------------------------------------------------
G|----2----1----1----2-----------------------------------------------------------
D|----2----2----2----2-------------------4-----------------------------4---------
A|----0----2----2----0-----------------------------------------------------------
E|---------0----0---------2----2----2---------2----0----2----2----2---------2----

E|---------------------------
B|----2--------4--------5----
G|----2--------4--------5----
D|----2--------4--------5----
A|----0--------2--------3----
E|---------------------------

E|-------------------------------------------3----
B|-------------------------------------------x----
G|-------------------------------------------3----
D|-------------------4-----------------------2----
A|-------------------------------------------3----
E|----2----2----2---------2----0----2-------------
Become a Patron (tier $3 and above) to download playable Guitar Pro tabs!

Leave a Reply

Your email address will not be published. Required fields are marked *