(/) Slide Up  (\) Slide Down  (h) Hammer On  (p) Pull Off  (b) Bend (r) Release (v) Vibrato

E|-------------------------------------------------------10b-------------------
B|-----8--8-----8-----10b----8--8--------8--8--10b-8--8------11p10p8-----8-----
G|-/9--------9-----9------9--------9--9-------------------------------9-----9--
D|-----------------------------------------------------------------------------
A|-----------------------------------------------------------------------------
E|-----------------------------------------------------------------------------



E|------8-------------------------------8------------------------8--8-8--------15\--
B|--11b---11--10--8h10p8-----8-----11b----11--10--8h10p8----8---11-10-8---8----15\--
G|-----------------------9-----9-------------------------9--------------9------16\--
D|----------------------------------------------------------------------------------
A|----------------------------------------------------------------------------------
E|----------------------------------------------------------------------------------




E|-------------------------------------------------15--------------15------
B|----------5-----5------------------------15--18b-----15h18p15------------
G|-----3h4--5-----5-----3h4-------------------------------------17----15\--
D|--5----------5-----5-------5---------------------------------------------
A|------------------------------5--3--2/-----------------------------------
E|-------------------------------------------------------------------------



E|--------3----------3--------------------------------------------------
B|--3--6b----3h6p3--------------------4/6-------------------------------
G|-----------------5--------3h4--3h4--5/7--7\5--7\5--3------------------
D|-----------------------5-----------------------------5-----------3h5--
A|---------------------------------------------------------3h4p3--------
E|---------------------------------------------------------------6------



E|---------------15---15----------------------------------15----15----15----15-17-15---
B|--15--15-18-18b--18b---15-------------------15-15-18-18b---18b---18b---18b---------18
G|--------------------------18\17-15--17-------x---------------------------------------
D|-------------------------------------x-14----x---------------------------------------
A|-------------------------------------x-----------------------------------------------
E|-------------------------------------------------------------------------------------



E|-15------15--18b--------18--15----------------------------------
B|----15-----15-------------------18--15----------------------15--
G|----------------------------------------18--17--15----------15--
D|----------------------------------------------------17--15--14--
A|----------------------------------------------------------------
E|----------------------------------------------------------------



E|--------------------------------------------------------------------------------------
B|--15--18--17--15h17p15----------------------------------------------------------------
G|---x------------------17--15h16p15------------------------------------12----12--------
D|---x------------------------------17--15h17p15---------------------------12----12-15--
A|----------------------------------------------17--15h17p15--13--13-14-----------------
E|--------------------------------------------------------------------------------------



E|--6--6--18--18--6--6--18--18--18--18--6--3h5p3---------------------------------
B|--5--5--17--17--5--5--17--17--17--17-----------5--3h5p3---------------------5--
G|--6--6--18--18--6--6--18--18--18--18--------------------5-3h4--3h4----------5--
D|--------------------------------------------------------------------5-------4--
A|----------------------------------------------------------------------5-----5--
E|-------------------------------------------------------------------------------
Become a Patron (tier $3 and above) to download playable Guitar Pro tabs!

Leave a Reply

Your email address will not be published. Required fields are marked *