Blues Deluxe intro
(/) Slide Up  (\) Slide Down  (h) Hammer On  (p) Pull Off  (b) Bend (r) Release (v) Vibrato
E|-------------------8--11b--8----------------------8--8/10--8--
B|------------8--10------------10--8----------------8--8/10--8--
G|------8h9--------------------------8h9------------8--8/10--8--
D|--10--------------------------------------10--8---------------
A|--------------------------------------------------------------
E|--------------------------------------------------------------
 
E|----------------------11--13b--13b--11------------------11-----
B|---------------13--13------------------13--13------13------13\-
G|-----------------------------------------------12--------------
D|---------------------------------------------------------------
A|---------------------------------------------------------------
E|---------------------------------------------------------------
 
E|--15b--15--15b--15--13b--13---13--------------------------------------------------
B|----------------------------16--16--13------13--13------13--15b--15--15b--13--13--
G|--------------------------------------14------------14----------------------------
D|----------------------------------------------------------------------------------
A|----------------------------------------------------------------------------------
E|----------------------------------------------------------------------------------
 
E|--8----------------------------------------------------9--8p7---------10p7------------------------------
B|-----8h10---8--------------------------------7--10--7-----------10--7---------10p7----------------------
G|---------------8p7--------------------7--9------------------------------------------9b--9--7-----7--9b--
D|---------------------9-----------6--9---------------------------------------------------------9---------
A|------------------------9p8p7---------------------------------------------------------------------------
E|--------------------------------------------------------------------------------------------------------
 
E|--16b--13b--13b--13--11---------------------15--------------------
B|-----------------------13----------13----15b---15b--15b--15---13--
G|---------------------------12--14---------------------------------
D|------------------------------------------------------------------
A|------------------------------------------------------------------
E|------------------------------------------------------------------
 
E|--15b--15--15b--15--13b--13---13--------------------------------------------------
B|----------------------------16--16--13------13--13------13--15b--15--15b--13--13--
G|--------------------------------------14------------14----------------------------
D|----------------------------------------------------------------------------------
A|----------------------------------------------------------------------------------
E|----------------------------------------------------------------------------------
 
E|------------------------------------------------------------------------------------------
B|------------------------------------------------------------------------------------------
G|----------13--15b--15--15b--15--13b--13p11--11-----13b--13p11------10h11p10------11--10b--
D|--12--14b---------------------------------12-----------------12--------------12-----------
A|------------------------------------------------------------------------------------------
E|------------------------------------------------------------------------------------------
 
E|-------------------------------------------------------------------------
B|------13--10-------------------------------------------------------------
G|--12b----------12--10------10------10h12p10------10----------/12--8b------
D|----------------------13------13--------------12----------10---------10--
A|------------------------------------------------------12-----------------
E|-------------------------------------------------------------------------
 
E|-----------8---------------------------------------------------
B|--------8-----11--8--------------------------------------------
G|--8h9---------------8h10--8------10/-8b------8b----------10----
D|-------------------------------10---------10-------------9-----
A|-------------------------------------------------8/9/10--10----
E|---------------------------------------------------------------
Joe Bonamassa - Blues Deluxe intro
Guitar Tabs

 


Become a Patron (tier $3 and above) to download playable Guitar Pro tabs!

Leave a Reply

Your email address will not be published. Required fields are marked *